Song name
# A B C D E F G H I J K L M N O P Q R S T U V W X Y Z

Washya - Stabbed In The Back tab

-----------------------------------------------------------------------------
                 Stabbed In The Back - Washya
-----------------------------------------------------------------------------
Tuning: Drop D (DADGBE)
Intro
e|------------------------------|
b|------------------------------|
g|------------------------------|
D|-0-3h5-5-55-3h5-3-33-3h5-0-00-|
A|-0-----5-55-----3-33-----0-00-|
D|-0-----5-55-----3-33-----0-00-|
PM         **       **       ** 

Verses (All Palm Muted)
e|-----------------------------------------|
b|-----------------------------------------|
g|-----------------------------------------|
D|-----------------------------------------|
A|-555555555555/88888888\33333333-00000000-|
D|-555555555555/88888888\33333333-00000000-|
PM ************ ******** ******** ******** 

Chorus
e|--------------------------------------------------------------------------|
b|--------------------------------------------------------------------------|
g|--------------------------------------------------------------------------|
D|--------------------------------------------------------------------------|
A|---------------2~-6-5-3-0-5-3-00000000-33333333-66666666-55555555-0-5-3-0-|
D|-2h3p2p0-0-2h3----6-5-3-0-5-3-00000000-33333333-66666666-55555555-0-5-3-0-|
PM ******* * *** 

Solo
e|------------------------------------------------------------------------|
b|----------------------10br7h9~------------------------------------------|
g|-9~-9p7h10p9~-----7h9----------9999\88\6666\4444-6p4p0-4bp2-2h4p2-2p0h2-|
D|--------------7-9-------------------------------------------------------|
A|------------------------------------------------------------------------|
D|------------------------------------------------------------------------|
Tap to rate this tab
 
# A B C D E F G H I J K L M N O P Q R S T U V W X Y Z