Song name
# A B C D E F G H I J K L M N O P Q R S T U V W X Y Z

Washya - Reborn tab

-------------------------------------------------------------------------------
                           Reborn - Washya
-------------------------------------------------------------------------------
Tuning: Standard (ebgDAE)
Intro x 10
e|-------|-0-|
b|-------|-3-|
g|-------|-2-|
D|-------|-0-|
A|-3-3-2-|-0-|
E|-1-1-0-|-0-|

Verses
e|------------------------|
b|------------------------|
g|------------------------|
D|------------------------|
A|------3-33-222-3-33-222-|
E|-//xx-1-11-000-1-11-000-|

Chorus
e|------------------------------------------------|
b|------------------------------------------------|
g|------------------------------------------------|
D|------------------------------------------------|
A|-2----8---7----5---7---8----8---7---5h8p7p5-5\7-|
E|-0-00---0---00---0---0---00---0---0---------3\5-|
PM   **   *   **   *   *   **   *   *  
Tap to rate this tab
 
# A B C D E F G H I J K L M N O P Q R S T U V W X Y Z