Song name
# A B C D E F G H I J K L M N O P Q R S T U V W X Y Z

Washya - Cast The First Sin tab

-----------------------------------------------------------------------------
            Cast The First Sin - Washya
-----------------------------------------------------------------------------
Tuning: Standard (ebgDAE)
Intro                   
e|-----------------------------|-------------|
b|-----------------------------|-------------|
g|-----------------------------|-------------|
D|----------3p2-------------3~-|---------5/7-|
A|------3-5-----3p2-----3-5----|-----3-5-3/5-|
E|--3-5-------------3-5--------|-3-5---------|
PM  * * * * *** *** * * * *      * * * *   

Verses
e|-------------------------------------|
b|-------------------------------------|
g|-------------------------------------|
D|-------------------------------------|
A|-------------------------------------|
E|-00001301-00001301-00001301-00001301-|
PM ******** ******** ******** ******** 

Chorus
e|-----------------------------|
b|-----------------------------|
g|-----------------------------|
D|-----------------------------|
A|------5---3------5---3---345-|
E|-0000-3-0-1-0000-3-0-1-0-123-|
pm ****   *   ****   *   * 
Tap to rate this tab
# A B C D E F G H I J K L M N O P Q R S T U V W X Y Z