Song name
# A B C D E F G H I J K L M N O P Q R S T U V W X Y Z

Washya - Critical Error tab

-----------------------------------------------------------------------------
                        Critical Error - Washya
-----------------------------------------------------------------------------
Tuning: Standard (ebgDAE)
Intro
e|----------------------------|
b|----------------------------|
g|----------------------------|
D|-------5-------7-------10\9-|
A|-------3-------5-------8-\7-|
E|-00000---00000---00000------|
PM *****   *****   ***** 

Part 2             Verses
e|-----------|-------------------------------|
b|-----------|-------------------------------|
g|-----------|-------------------------------|
D|-7-5-4-5-4-|----2---2----22---2-3p2p0------|
A|-5-3-2-3-2-|----2---2----22---2-------2p0--|
E|-----------|-00---0---00----0--------------|

Chorus
e|-----------------------------------|
b|-----------------------------------|
g|-----------------------------------|
D|-4-5/10\9-----3----------7-6-------|
A|-2-3/8-\7-5-7-1-3-3333-3-5-4-5-555-|
E|----------3-5---1-1111-1-----3-333-|
Tap to rate this tab
# A B C D E F G H I J K L M N O P Q R S T U V W X Y Z