Song name
# A B C D E F G H I J K L M N O P Q R S T U V W X Y Z

Washya - Free Man tab

-------------------------------------------------------------------------------
                             Free Man - Washya
-------------------------------------------------------------------------------
Tuning: Standard (ebgDAE)
Intro
e|---------------------------------------------|
b|---------------------------------------------|
g|---------------------------------------------|
D|---------------------------------------------|
A|-4--------------------4--------------------4-|
E|-2-0-0-0-0-0-0-0-0-00-2-0-0-0-0-0-0-0-0-00-2-|
PM   * * * * * * * * **   * * * * * * * * ** 

Main Riff 
e|---------------------------------|
b|---------------------------------|
g|---------------------------------|
D|------5-7------------------------|
A|-4----3-5-4-5-4------8-7-4-5-4-2-|
E|-2-00-----2-3-2-0-00-6-5-2-3-2-0-|
PM   **           * ** 

Verses
e|-----------------|
b|---------0-------|
g|-----0-----0-----|
D|---4---4-----5p4-|
A|-2---------------|
E|-----------------|
Tap to rate this tab
 
# A B C D E F G H I J K L M N O P Q R S T U V W X Y Z