Song name
# A B C D E F G H I J K L M N O P Q R S T U V W X Y Z

Washya - Jailbreaker tab

-------------------------------------------------------------------------------
                        Jailbreaker - Washya
-------------------------------------------------------------------------------
Tuning: Drop D (DADGBE)
Intro
e|-----------------|
b|-----------------|
g|-----------------|
D|-44-4-2-----3-5--|
A|-22-2-0-3-5-1-3--|
D|--------3-5------|

Verses
e|---------------------------------------------------|
b|---------------------------------------------------|
g|---------------------------------------------------|
D|---------------------------------------------------|
A|-----3----5----3h5h6-----5----7----5h7h8----1111h3-|
D|-000---00---00-------000---00---00-------00-1111h3-|
PM ***   **   **       ***   **   **       ** 

Chorus
e|---------------------------------------------------------------------|
b|---------------------------------------------------------------------|
g|---------------------------------------------------------------------|
D|---------------------------------5-555-55-8-888-88-------------------|
A|------8-888-88-5-555-55-2-222-22-3-333-33-6-666-66-6-666-66-3-333-33-|
D|-//xx-8-888-88-5-555-55-2-222-22-------------------6-666-66-3-333-33-|

Guitar Solo
e|------------------------------------------------------------------|
b|----------------------------------------------10-8-7-10-12-10-12~-|
g|--------8-7-----------------8-7-10-8-7----8-7---------------------|
D|-7-9-10-----9-7-9-9-7---7-9------------10-------------------------|
A|----------------------9-------------------------------------------|
D|------------------------------------------------------------------|
Tap to rate this tab
# A B C D E F G H I J K L M N O P Q R S T U V W X Y Z