Song name
# A B C D E F G H I J K L M N O P Q R S T U V W X Y Z

Washya - Frozen In Time tab

-------------------------------------------------------------------------------
             Frozen In Time - Washya
-------------------------------------------------------------------------------
Tuning: Drop B(BF#BEG#C#)
Intro
B|-----------------------|
F#|----------------------|
B|----------------5b-5b--|
E|--7\5-----------7b-7b--|
G#|-5\3-6-5-3-4-5--------|
C#|-----6-5-3-4-5--------|
PM      * * * * * 

Verses
B|------------------------------|
F#|-----------------------------|
B|------------------------------|
E|------------------------7b-7b-|
G#|-3-5-4-5-6-5-3-5-5-6-5-7b-7b-|
C#|-3-5-4-5-6-5-3-5-5-6-5-------|
PM  * * * * * * * * * * *  

Chorus
B|----------------------------------------------------------------|
F#|---------------------------------------------------------------|
B|----------------------------------------------------------------|
E|-----------55555555-33333333------------------------------------|
G#|-55555555-33333333-11111111-33-1-3-1-3/666-5-666-3333333-0-1-3-|
C#|-55555555-------------------33-1-3-1-3/666-5-666-3333333-0-1-3-|
Tap to rate this tab
# A B C D E F G H I J K L M N O P Q R S T U V W X Y Z