Song name
# A B C D E F G H I J K L M N O P Q R S T U V W X Y Z

Washya - Dangerous Passions tab

-------------------------------------------------------------------------------
             Dangerous Passions - Washya
-------------------------------------------------------------------------------
Tuning: Standard (ebgDAE)
intro (very fast)
e|-----------------|
b|-----------------|
g|-----------------|
D|-----------------|
A|-----2-0-1-------|
E|-0-3-------3-1-0-|

Chorus/Main Riff
e|----------------------------------------------------------------------|
b|----------------------------------------------------------------------|
g|------------------------------------15~---------------20----20----21~-|
D|------------------------------14-12--------------/19~----19----19-----|
A|-333--------------12-13-14-15----------------777----------------------|
E|-111/15~-12-14-15-----------------------//xx-555----------------------|
pm ***     ** ** ** ** ** ** ** ** ** 

Verses
e|------------------------------------------------------------------|
b|------------------------------------------------------------------|
g|------------------------------------------------------------------|
D|------------------------------------------------------------------|
A|-22-2-2-2222-22-2222-2-2-22-2-22-22222-2-2-2222-222-3-222-3-3/5\3-|
E|-00-0-0-0000-00-0000-0-0-00-0-00-00000-0-0-0000-000-1-000-1-1/3\1-|
PM ** * * **** ** **** * * ** * ** ***** * * **** ***   ***    
Tap to rate this tab
# A B C D E F G H I J K L M N O P Q R S T U V W X Y Z