Song name
# A B C D E F G H I J K L M N O P Q R S T U V W X Y Z

Washya - Richelieu tab

-----------------------------------------------------------------------------
                  Richelieu - Washya
-----------------------------------------------------------------------------
Tuning: Standard (ebgDAE)
Intro
e|--------------------------------------|
b|--------------------------------------|
g|--------------------------------------|
D|-------------1p0---------------2p0----|
A|-2-222-0h1h2-----3-3-333-0h2h3-----2--|
E|-0-000-------------1-111-----------0--|
PM   ***               *** 

Verses
e|-------------------------------------|
b|-------------2-----------------------|
g|-------0---4---4-------------0-5-4-5-|
D|-----5---5-------5-4-------4---------|
A|---2-----------------2---2-----------|
E|-0---------------------0-------------|

Chorus
e|------------------------------|
b|------------------------------|
g|------------------------------|
D|------------5\4---------333---|
A|-9/10-7/9---3\2-5/7-2-3-111-4-|
E|-7/8--5/7-0-----3/5-0-1-----2-|
Tap to rate this tab
# A B C D E F G H I J K L M N O P Q R S T U V W X Y Z