Song name
# A B C D E F G H I J K L M N O P Q R S T U V W X Y Z

Washya - Headless Horseman tab

-------------------------------------------------------------------------------
            Headless Horseman - Washya
-------------------------------------------------------------------------------
Tuning: Standard (ebgDAE)
Intro
e|-------------------------------------------------------|
b|-------------------------------------------------------|
g|-------------------------------------------------------|
D|-------------------------------------------------------|
A|-----------------------------------------------------6-|
E|-3-6-3-6-3-6-3-6-3-6-3-6-3-6-3-1-4-1-4-1-4-1-4-1-4-1-4-|
PM * * * * * * * * * * * * * * * * * * * * * * * * * *    

Verses
e|--------------------------------------------|
b|--------------------------------------------|
g|--------------------------------------------|
D|-----11\10-11\9-----8\7\5/7-----10\9/10\7/9-|
A|-----9-\8--9-\7-----6\5\3/5-----8-\7/8-\5/7-|
E|-000------------000---------000-------------|
PM ***            ***         *** 

Chorus
e|--------------------------------------|
b|--------------------------------------|
g|--------------------------------------|
D|------5-4-11-10---------7-6-----------|
A|-5-10-3-2-9--8--7-9---5-5-4-4-5-4-3-2-|
E|-3-8------------5-7-0-3-----2-3-2-1-0-|
Tap to rate this tab
 
# A B C D E F G H I J K L M N O P Q R S T U V W X Y Z