Song name
# A B C D E F G H I J K L M N O P Q R S T U V W X Y Z

Washya - Lovelust tab

-----------------------------------------------------------------------------
                        Lovelust - Washya
-----------------------------------------------------------------------------
Tuning: Drop D (ebgDAD)
Intro
e|---------------------------|
b|---------------------------|
g|---------------------------|
D|-----------------------3-3-|
A|-4-3-1-3-4-3-1-3-1-3-4-1-1-|
D|-4-3-1-3-4-3-1-3-1-3-4-----|
PM * * * * * * * * * * * 

Verses
e|---------------------------|
b|---------------------------|
g|---------------------------|
D|-----------------------3-3-|
A|-3-1-0-1-3-1-0-1-0-1-0-1-1-|
D|-3-1-0-1-3-1-0-1-0-1-0-----|
PM * * * * * * * * * * * 

Chorus
e|---------------------------|
b|---------------------------|
g|---------------------------|
D|------------------------2~-|
A|----3---4---3---1---3h4----|
D|-11---1---1---1---1--------|x 15
PM **   *   *   *   *  

Chorus (second part)
e|--------------|
b|--------------|
g|--------------|
D|--------------|
A|-777777h8p444-|
D|-777777h8p444-|
Tap to rate this tab
# A B C D E F G H I J K L M N O P Q R S T U V W X Y Z