Song name
# A B C D E F G H I J K L M N O P Q R S T U V W X Y Z

Washya - Heed The Warning tab

-----------------------------------------------------------------------------
               Heed The Warning - Washya
-----------------------------------------------------------------------------
Tuning: Standard (ebgDAE)
Intro
e|---------------------------------------|
b|---------------------------------------|
g|---------------------------------------|
D|----10---8---7---5---7---8-8/9\8\6\5/7-|
A|----8----6---5---3---5---6-6/7\6\4\3/5-|
E|-00----0---0---0---0---0---------------|
PM **    *   *   *   *   * 

Verses
e|-------------------------------------|
b|-------------------------------------|
g|-------------------------------------|
D|-------------------------------------|
A|-4----4------------4----4------------|
E|-2-22-2-22-2222-22-2-22-2-22-2222-22-|
PM   **   ** **** **   **   ** **** ** 

Part Before Chorus
e|--------------------|
b|--------------------|
g|--------------------|
D|--------5-5-3-------|
A|-22-5-7-3-3-1-2-3-3-|
E|-00-3-5-------0-1-1-|

Chorus
e|--------------------------------------|
b|--------------------------------------|
g|--------------------------------------|
D|--------------5-8-5-----------3-----5-|
A|-2-7-10-5-2-3-3-6-3-3-5-8-7-5-1-3-2-3-|
E|-0-5-8--3-0-1-------1-3-6-5-3---1-0---|
Tap to rate this tab
# A B C D E F G H I J K L M N O P Q R S T U V W X Y Z