Song name
# A B C D E F G H I J K L M N O P Q R S T U V W X Y Z

Washya - Abercrombie tab

-------------------------------------------------------------------------------
                     Abercrombie - Washya
-------------------------------------------------------------------------------
Tuning: Standard (ebgDAE)
Intro
e|-----------------------|
b|-----------------------|
g|-----------------------|
D|---------3-----3-------|
A|-----6-5---5-6---------|
E|-0-2-------------6-5-3-|
PM * * * * * * * * * * * 

Verses
e|---------------------------------------------------------------------|
b|---------------------------------------------------------------------|
g|---------------------------------------------------------------------|
D|---------------------------------------------------------------------|
A|---------------------------------------------------------------------|
E|-1p0-0-0-0-0-0-0-0-0-0-0-0-0-2p1p0-0-0-0-0-0-0-0-0-0-0-0-0-0-0-2p1p0-|
PM     * * * * * * * * * * * *       * * * * * * * * * * * * * * 

Chorus
e|--------------------------------------|
b|--------------------------------------|
g|--------------------------------------|
D|----------------------12h14p12--------|
A|-2-5-4-3-2-7-6-----14----------14-----|
E|-0-3-2-1-0-5-4/15~----------------12~-|
Tap to rate this tab
# A B C D E F G H I J K L M N O P Q R S T U V W X Y Z