Song name
# A B C D E F G H I J K L M N O P Q R S T U V W X Y Z

Washya - White Widow tab

-------------------------------------------------------------------------------
                        White Widow - Washya
-------------------------------------------------------------------------------
Tuning: Standard (ebgDAE)
Intro
e|---------------------------------------------------------|
b|---------------------------------------------------------|
g|---------------------------------------------------------|
D|---------------------------------------------------------|
A|---------------------------------------------------------|
E|-3-00-3-00-3-0-5-0-6-0-3-0-3-0-3-00-5-00-6-0-5-0-3-0-3-0-|
PM * ** * ** * * * * * * * * * * * ** * ** * * * * * * * * 

Verses
e|------------------------------------------------------------------|
b|------------------------------------------------------------------|
g|------------------------------------------------------------------|
D|-xxxxxxxxxxxxxx-4-4-xxxxxxxxxxx-8-8-xxxxxxxxxxxx-2-2-xxxxxxxxxxxx-|
A|-xxxxxxxxxxxxxx-4-4-xxxxxxxxxxx-8-8-xxxxxxxxxxxx-2-2-xxxxxxxxxxxx-|
E|-xxxxxxxxxxxxxx-2-2-xxxxxxxxxxx-6-6-xxxxxxxxxxxx-0-0-xxxxxxxxxxxx-|

Chorus
e|----------------------------------------------------------------|
b|----------------------------------------------------------------|
g|----------------------------------------------------------------|
D|------------3/4------------7/8------------11/12-0h3p2p0---------|
A|-22-2-2-2-2-3/4-22-2-2-2-2-7/8-22-2-2-2-2-11/12---------2h3p2-2-|
E|-00-0-0-0-0-1/2-00-0-0-0-0-5/6-00-0-0-0-0-9-/10---------------0-|
PM ** * * * *     ** * * * *     ** * * * *                     * 
Tap to rate this tab
# A B C D E F G H I J K L M N O P Q R S T U V W X Y Z