Song name
# A B C D E F G H I J K L M N O P Q R S T U V W X Y Z

Washya - Wolfman tab

-----------------------------------------------------------------------------
                   Wolfman - Washya
-----------------------------------------------------------------------------
Tuning: Standard (ebgDAE)
Intro
e|-----------------|
b|-----------------|
g|-----------------|
D|-----------3-----|
A|-2-8/7-4/5-1-3-2-|
E|-0-6/5-2\3---1-0-|

Verses
e|-------------------------------------------|
b|-------------------------------------------|
g|-------------------------------------------|
D|----------3p2p0----------------3p2p0-------|
A|----------------2p0h2----------------2p0h2-|
E|-00000000-------------00000000-------------|
PM ********             ******** 

Chorus
e|-------------------------------------------------------------|
b|-------------------------------------------------------------|
g|-------------------------------------------------------------|
D|----------5----5-7-7---------------------7-55-7--------------|
A|----3-----3----3-5-5-----3-5---3-7/9-9---5-33-5-5h7p5p4-6-88-|
E|-00-1--00---00-------0-0-1-3-0-1-5/7-7-0----------------4-66-|
PM **    **   **       * *     *         *  

Solo
e|-----------------------------------------------------------------------|
b|-----------------------------------------------------------------------|
g|-4h9t12p9p4h9t12p9p4h9t12----------------------------------------------|
D|--------------------------5h10t15p10p5h10t15p10p5h10t15-15-15-15-13-12-|
A|-----------------------------------------------------------------------|
E|-----------------------------------------------------------------------|

e|------------------------------------------------------------------------|
b|------------------------------------------------------------------12-11-|
g|-------------------------------------------------------11-13b-13b-------|
D|----15-13-12----12-14-14-14b/-9999\8888/11111111/11h13------------------|
A|-14----------14---------------------------------------------------------|
E|------------------------------------------------------------------------|

e|-------------------------14-15-14-12h15p14p12h15p14p12h15p14p12h15p14p12-|
b|-------------------12-11-------------------------------------------------|
g|-13-11----11h13-13-------------------------------------------------------|
D|-------13----------------------------------------------------------------|
A|-------------------------------------------------------------------------|
E|-------------------------------------------------------------------------|

e|-14p12h14p12p10p8h10p8p7----------------------------------------------|
b|-------------------------9-7---9-7---7--------------------------------|
g|-----------------------------9-----9---9-7---7--------------------10~-|
D|-------------------------------------------9---9-7-------10-12-13-----|
A|---------------------------------------------------9-8-7--------------|
E|----------------------------------------------------------------------|
Tap to rate this tab
# A B C D E F G H I J K L M N O P Q R S T U V W X Y Z