Song name
# A B C D E F G H I J K L M N O P Q R S T U V W X Y Z

Washya - Fire Wind And Dust tab

-------------------------------------------------------------------------------
                     Fire, Wind and Dust - Washya
-------------------------------------------------------------------------------
Tuning: Standard (ebgDAE)
Intro (three times)
e|------------------|-----------------------|
b|---11---9---6-----|-----------------------|
g|-7----7---7---9-7-|-----------------------|
D|------------------|-11-10-9-8-7-----------|
A|------------------|-9--8--7-6-5-6-5-4-3-2-|
E|------------------|-------------4-3-2-1-0-|
PM                    ** ** * * * * * * * * 

Verses
e|-------------------------|
b|-------------------------|
g|-------------------------|
D|----8---8---8---8---88/9-|
A|----6---6---6---6---66/7-|
E|-00---0---0---0---0------|
PM **   *   *   *   * 

Chorus
e|-----------------------------------|
b|-----------------------------------|
g|-----------------------------------|
D|-------7-------9-------3-2---------|
A|-4-3-4-5-4-3-4-7-4-3-4-1-0-5-4-3-2-|
E|-2-1-2---2-1-2---2-1-2-----3-2-1-0-|
PM * * *   * * *   * * *     * * * *  
Tap to rate this tab
 
# A B C D E F G H I J K L M N O P Q R S T U V W X Y Z