Song name
# A B C D E F G H I J K L M N O P Q R S T U V W X Y Z

Washya - Scratching The Old Itch tab

-----------------------------------------------------------------------------
           Scratching The Old Itch - Washya
-----------------------------------------------------------------------------
Tuning: Standard (ebgDAE)
Intro
e|---------------------------------------------------|
b|---------------------------------------------------|
g|---------------------------------------------------|
D|-------------------------------------------6b------|
A|-------2-------2-7-8-7-5-7-------2-------2----7-8~-|
E|-0000000-0000000-5-6-5-3-5-0000000-0000000---------|

Verses
e|---------------------------------------------|
b|---------------------------------------------|
g|---------2b~-0-----------------6~------------|
D|-------4-------5-4-2---------4----5-3--------|
A|-2-2/5---------------4---2/5----------5-6----|
E|-0---------------------0------------------3--|

Chorus
e|-----------------------------------------------|
b|-----------------------------------------------|
g|-----------------------------------------------|
D|-------------------------------------6~--------|
A|-----------------------------5-6-7-6---7-6-4-2-|
E|-00-6-0-5-0-6-0-5-0-6-0-5-00-3-4-5-4---5-4-2-0-|
PM ** * * * * * * * * * * * **                        
Tap to rate this tab
# A B C D E F G H I J K L M N O P Q R S T U V W X Y Z