Song name
# A B C D E F G H I J K L M N O P Q R S T U V W X Y Z

Washya - Alterations tab

-----------------------------------------------------------------------------
                           Alterations - Washya
-----------------------------------------------------------------------------
Tuning: Drop D (ebgDAD)
Intro
e|-----------------------------|
b|-----------------------------|
g|-----------------------------|
D|-----------------------------|
A|-3-1-0-1-3p1-0-1-4-3-1-3-0-0-|
D|-3-1-0-1-3p1-0-1-4-3-1-3-0-0-|

Verses
e|----------------------------------------------------------|
b|----------------------------------------------------------|
g|----------------------------------------------------------|
D|---------------------------------------------5555-33------|
A|-3333333-22222222-555555555-1111111111-33323-3333-11-5535-|
D|-3333333-22222222-555555555-1111111111-33323---------5535-|
PM ******* ******** ********* ********** ***** **** ** **** 

Chorus
e|-----------------------------------------------------------------------|
b|-----------------------------------------------------------------------|
g|-----------------------------------------------------------------------|
D|-777/9----------------------------3333333/6666666----------------------|
A|-555/7-8-99-8-9-8-6-8-6-5-6-5-3-5-1111111/4444444-444444-222222-333333-|
D|-------8-99-8-9-8-6-8-6-5-6-5-3-5-----------------444444-222222-333333-|
Tap to rate this tab
 
# A B C D E F G H I J K L M N O P Q R S T U V W X Y Z