Song name
# A B C D E F G H I J K L M N O P Q R S T U V W X Y Z

Washya - Gripped With Fear tab

-------------------------------------------------------------------------------
                        Gripped With Fear - Washya 
-------------------------------------------------------------------------------
Tuning: Standard (ebgDAE)
Intro
e|---------------------------|
b|---------------------------|
g|---------------------------|
D|---5/7-------2-5/7---------|
A|-2-3/5-2-5/7-0-3/5-5/7\5-2-|
E|-0-----0-3/5-------3/5\3-0-|
PM *     *                 *

Verses (played Fast)
e|---------------------------------------------------------|
b|---------------------------------------------------------|
g|---------------------------------------------------------|
D|---------------------------------------------------------|
A|-----------1-----------1-0-2-----------1-----------1-0-2-|
E|-0-1-3-0-3---0-1-3-0-3-----0-0-1-3-0-3---0-1-3-0-3-----0-|
PM * * * * * * * * * * * * *   * * * * * * * * * * * * *  

Chorus
e|-------------------------------|
b|-------------------------------|
g|-------------------------------|
D|-----5-----------9-8-7---------|
A|-4-2-3-5/7-5-4-3-7-6-5-3-3-3-2-|
E|-2-0---3/5-3-2-1-------1-1-1-0-|

Solo (just a series of bends and pinch harmonics)
e|-----------------------------------------------|
b|-2b-5b-------5*-------------------15*-17b-20b~-|
g|-4b-7b-2b-5b----5*-9b-10b-12b-15*--------------|
D|-------4b-7b-------7b--------------------------|
A|-----------------------------------------------|
E|-----------------------------------------------|
Tap to rate this tab
 
# A B C D E F G H I J K L M N O P Q R S T U V W X Y Z