Song name
# A B C D E F G H I J K L M N O P Q R S T U V W X Y Z

Washya - Shutterspeed tab

-------------------------------------------------------------------------------
                         Shutterspeed - Washya
-------------------------------------------------------------------------------
Tuning: Standard (ebgDAE)
Intro
e|-------------------------------------------------------------|
b|-------------------------------------------------------------|
g|-------------------7b-7b-7b-------------------7b-7b-7b-5-----|
D|-------------------7b-7b-7b-------------------7b-7b-7b-5-----|
A|-33332-33332-33332----------33332-33332-33332------------7-5-|
E|-11110-11110-11110----------11110-11110-11110----------------|
PM ***** ***** *****          ***** ***** ***** 

Verses
e|---2-------------0-------------------------------|
b|-------3-------1-----2---------------------------|
g|-----2-------------------2-----------------------|
D|-------------2---------2-----2-----3p2p0---------|
A|-----------3-------------------2---------3p2p0-2-|
E|-0-------0---------0-------0-----0-------------0-|
PM *       *         *       *     * 

Chorus
e|-----------------------------|
b|-----------------------------|
g|-----------------------------|
D|-----------------------------|
A|-3332-3332-7-8-7-8-7-8-7-5-2-|
E|-1110-1110-5-6-5-6-5-6-5-3-0-|
Tap to rate this tab
 
# A B C D E F G H I J K L M N O P Q R S T U V W X Y Z