Song name
# A B C D E F G H I J K L M N O P Q R S T U V W X Y Z

Washya - Goliath tab

-----------------------------------------------------------------------------
                               Goliath - Washya
-----------------------------------------------------------------------------
Tuning: Standard (ebgDAE)
Intro
e|-------------------------------------------------|
b|-------------------------------------------------|
g|-----------------------0-----0---------------0-4-|
D|-----2-----2-----0---2-----2-------2---2---2---4-|
A|---3-----2-----2---2-----3-------2---2---3-----2-|
E|-0-----0-----3-----------------0-----------------|

Main Riff/Chorus
e|----------------------------------------------------------------------|
b|----------------------------------------------------------------------|
g|--------------------------------------------7b-5---5b-7-5-------------|
D|--7b-5---7-5-----------7b-5---7-5---5------------7--------7-6-5-------|
A|-------7-----7-5------------7-----7-----------------------------5-6-7-|
E|-----------------7-6-5----------------7-6-5---------------------3-4-5-|
PM                                                                * * * 

Verses
e|-------------------------------------------------------------------------|
b|-------------------------------------------------------------------------|
g|-------------------------------------------------------------------------|
D|-------------------------------------------------------------3-------3-2-|
A|-222-22-22222-22-22-2-22-22222-22-22-2222-2-22222-2-2-22-222-1-222-3-1-0-|
E|-000-00-00000-00-00-0-00-00000-00-00-0000-0-00000-0-0-00-000---000-1-----|
PM *** ** ***** ** ** * ** ***** ** ** **** * ***** * * ** ***   ***    
Tap to rate this tab
 
# A B C D E F G H I J K L M N O P Q R S T U V W X Y Z