Song name
# A B C D E F G H I J K L M N O P Q R S T U V W X Y Z

Washya - Snake Skin tab

-------------------------------------------------------------------------------
                             Snake Skin - Washya
-------------------------------------------------------------------------------
Tuning: Drop D (ebgDAD)
Intro
e|-------------------------------|
b|-------------------------------|
g|---9-9h10p9/2-2h3p2p0--------9-|
D|-0--------------------0-9h10---|
A|-0-----------------------------|
D|-0-----------------------------|

Main Riff
e|--------------------------------------|
b|--------------------------------------|
g|--------------------------------------|
D|---7-7/8\3-------------3--------------|
A|---5-5/6\1---11-3-5-55-1---4-3-1-3-00-|
D|-0---------0-11-3-5-55---0-4-3-1-3-00-|
PM *         *             * * * * * ** 

Verses
e|----------------------------------------------|
b|---------3-----------5-----------1------------|
g|-------4---4-------6---6-------2---2----------|
D|-----4-----------7-----------3-------555-77-7-|
A|---2-----------5-----------1---------333-55-5-|
D|-0-----------5-----------1--------------------|
Tap to rate this tab
# A B C D E F G H I J K L M N O P Q R S T U V W X Y Z