Song name
# A B C D E F G H I J K L M N O P Q R S T U V W X Y Z

Washya - Disposable Enemy tab

-------------------------------------------------------------------------------
       Disposable enemy - washya
-------------------------------------------------------------------------------
tuning: drop d (ebgDAD)
Intro
e|-------------------------------------------------|
b|-------------------------------------------------|
g|-------------------------------------------------|
D|-------------------------------------------------|
A|-00-0-0-0-00-00-0-0-0-1-00-0-0-0-00-0-0-0-00-0-1-|
D|-00-0-0-0-00-00-0-0-0-1-00-0-0-0-00-0-0-0-00-0-1-|

Verses
e|---------------------------------------------------------------|
b|---------------------------------------------------------------|
g|---------------------------------------------------------------|
D|---------------------7-5-----5-----------------------7-5-------|
A|---------------0h5h6-----6-5-3-----------------0h5h6-----6-8-5-|
D|-0-0-0-0-0-0-0-----------------0-0-0-0-0-0-0-0-------------8-5-|
PM * * * * * * *                 * * * * * * * *   

Chorus
e|-----------------------------------------------------------------|
b|-----------------------------------------------------------------|
g|-----------------------------------------------------------------|
D|------9/10\9--7\5/7/8\7---------------------55-5-----------------|
A|------7/8--\7-5\3/5/6\5-7h8-5-55-33-5-8-555-33-3-333-66-5-11-1-3-|
D|-0-00-------------------7h8-5-55-33-5-8-555------333-66-5-11-1-3-|
Tap to rate this tab
# A B C D E F G H I J K L M N O P Q R S T U V W X Y Z