Song name
# A B C D E F G H I J K L M N O P Q R S T U V W X Y Z

Washya - Freedom Of Speech tab

-------------------------------------------------------------------------------
                  Freedom Of Speech - Washya
-------------------------------------------------------------------------------
Tuning: Standard (ebgDAE)
Intro
e|----------------------------|
b|----------------------------|
g|----------------------------|
D|------9------7------4/5-4/5-|
A|------7------5------2/3-2/3-|
E|-0000---0000---0000---------|
PM ****   ****   **** 

Verses
e|---3---------3---3---------3---5---------5---5---------5-|
b|-----5---3-5-------5---3-5-------7---5-7-------7---5-7---|
g|-5-----5-------5-----5-------7-----7-------7-----7-------|
D|---------------------------------------------------------|
A|---------------------------------------------------------|
E|---------------------------------------------------------|

Chorus
e|------------------------------------------------------------------|
b|------------------------------------------------------------------|
g|------------------------------------------------------------------|
D|------5555-----------5555-3333-------------88888888-77777777------|
A|-7777-3333-5757-7777-3333-1111-3333-3535-3-66666666-55555555-5757-|
E|-5555------3535-5555-----------1111-1313-1-------------------3535-|
Tap to rate this tab
 
# A B C D E F G H I J K L M N O P Q R S T U V W X Y Z