Song name
# A B C D E F G H I J K L M N O P Q R S T U V W X Y Z

Washya - Third Leg tab

-------------------------------------------------------------------------------
                             Third Leg - Washya
-------------------------------------------------------------------------------
Tuning: Drop C (DAFCGC)
Intro
D|--------------------------------------------------|
A|--------------------------------------------------|
F|--------------------------------------------------|
C|----------------------------------------11-----11-|
G|----------------------------------------33-----33-|
C|-00-00-00-00-00-00-00-00-00000000-00-00-33-3-0-33-|x8
PM ** ** ** ** ** ** ** ** ******** ** **    * *   

Verses pt 1
D|----------------------|
A|----------------------|
F|-------1-----1--------|
C|-3b-3b---0h3----------|
G|-------------3-2-1----|
C|-------------------3b-|

Verses pt 2
D|-------------------------------------------------------------------------|
A|-------------------------------------------------------------------------|
F|-------------------------------------------------------------------------|
C|-------------------------------------------------------------------------|
G|------------------------4444555222222222---------------------------------|
C|-//xx555555555444777777------------------4444444443336666665556663333333-|
PM     ****************** **************** *******************************

Chorus
D|-------------------------------------------------------------|
A|-------------------------------------------------------------|
F|-------------------------------------------------------------|
C|-5/7-----------------555\4-------------------------------3-2-|
G|-3/5-3h5-1h3-6p5-2h3-333\2-2h3-5h6-0h3-666p5-0-1-2-4-2-0-1-0-|
C|-----3h5-1h3-6p5-2h3-------2h3-5h6-0h3-666p5-0-1-2-4-2-0-----|
PM                                             * * * * * * 

Interlude (Played Fast)
D|------------------------------------------------------|
A|------------------------------------------------------|
F|------------------------------------------------------|
C|-4-4bp2---2-4p2---2------------------3b-5p3-----------|
G|--------4-------4---4-3-2---5-5bp3----------6-4-3-5p3-|
C|--------------------------0--------5--------------5p3-|
PM                          *        *              *** 
Tap to rate this tab
# A B C D E F G H I J K L M N O P Q R S T U V W X Y Z