Song name
# A B C D E F G H I J K L M N O P Q R S T U V W X Y Z

Washya - Grief Stricken Silence tab

-----------------------------------------------------------------------------
                   Grief Stricken Silence - Washya
-----------------------------------------------------------------------------
Tuning: D Tuning (DAFCGD)
Intro
D|-------------------------------------------------|
A|-------------------------------------------------|
F|-------3-------------3-------------3-------------|
C|-----4-------------4-------------4---------------|
G|---4-----5\4/5---4-----5\4\3---4-----8\7\5/7\5-2-|
D|-2-------3\2/3-2-------3\2\1-2-------6\5\3/5\3-0-|
PM * * * *       * * * *       * * * * 

Verses
D|-----------------------------------------------------|
A|-----------------------------------------------------|
F|-----------------------------------------------------|
C|-----------------------------------------------------|
G|-99999-5-6-222222-99999-5-6-222222-99999-5-6-2222222-|
D|-77777-3-4-000000-77777-3-4-000000-77777-3-4-0000000-|
PM ***** * * ****** ***** * * ****** ***** * * ******* 

Chorus
D|--------------------------------------------------------------------|
A|--------------------------------------------------------------------|
F|--------------------------------------------------------------------|
C|-----------------------------------------------4-2-4-4b-----4-2-6p5-|
G|---5-5-5-5-778---5-5-5-5-5-778---5-5-5-5-5---4------------4---------|
D|-0030303030556-003030303030556-0030303030302------------2-----------|
PM ** * * * *    ** * * * * *    ** * * * * *   

Guitar Solo (slowly)
D|----------------------------------------------------------10---|
A|----------------------------------------------------------10---|
F|-9b-7---9---7~-11p9p8----------------------------6---6-8b----8-|
C|------7---7-----------11p9p8h9/5~------------7-5---5-----------|
G|----------------------------------5-3---3-5b-------------------|
D|--------------------------------------5------------------------|

D|-13p12p10-----------------------------------------------------------10--|
A|----------13p12p10----------------------------------------9-7---9-7-----|
F|-------------------12p11p9----------------------9-7---9-7-----9---------|
C|---------------------------12p11p9-9p7h9p7h9-9b-----9-------------------|
G|------------------------------------------------------------------------|
D|------------------------------------------------------------------------|

D|-14h15p14h15p14h15-12h13p12h13p12h13-10h12p10h12p10h12------------------|
A|-------------------------------------------------------7h8p7h8p7h8p7----|
F|---------------------------------------------------------------------9b-|
C|------------------------------------------------------------------------|
G|------------------------------------------------------------------------|
D|------------------------------------------------------------------------|

D|-22p21p19-----------------------------------------------------|
A|----------22p21p19--------------------------------------------|
F|-------------------21p19p18-----------------------------------|
C|----------------------------21p19p18--------------------------|
G|-------------------------------------20p18p17----------19-----|
D|----------------------------------------------20p18p17----17~-|
Tap to rate this tab
# A B C D E F G H I J K L M N O P Q R S T U V W X Y Z