Song name
# A B C D E F G H I J K L M N O P Q R S T U V W X Y Z

Washya - The Nameless tab

-----------------------------------------------------------------------------
                 The Nameless - Washya
-----------------------------------------------------------------------------
Tuning: Standard (ebgDAE)
Intro
e|-----------------------------------------|
b|-----------------------------------------|
g|-----------------------------------------|
D|-3h4----------3h4----------3h4-----------|
A|-----2-5/7-22-----2-5/7-22-----2-5/7-22--|
E|-----------00-----------00-----------00--|
PM           **           **           ** 

Main Riff/Chorus
e|-----------------------------------------|
b|-----------------------------------------|
g|-----------------------------------------|
D|--------4--------------------3-----------|
A|-4/99\4-2-4-4\55/4\5-3/88\3-1-3-3/44\3/4-|
E|-2/77\2---2-2\33/2\3-1/66\1---1-1/22\1/2-|

Verses
e|-------------------------|
b|-------------------------|
g|-------------------------|
D|-------------------------|
A|-3333-6-5-3-3333/5-333/7-|
E|-1111-4-3-1-1111/3-111/5-|
PM **** * * * ****   *** 
Tap to rate this tab
 
# A B C D E F G H I J K L M N O P Q R S T U V W X Y Z