Song name
# A B C D E F G H I J K L M N O P Q R S T U V W X Y Z

Washya - Gassed Out tab

-----------------------------------------------------------------------------
                          Gassed Out - Washya
-----------------------------------------------------------------------------
Tuning: Drop D (ebgDAD)
Intro
e|-------------------|
b|-------------------|
g|-------------------|
D|-------------------|
A|-0-3-5-0-3-2-666-5-|
D|-0-3-5-0-3-2-666-5-|

Verses
e|---------------------------|
b|---------------------------|
g|---------------------------|
D|---4---5---4-7---9---5-777-|
A|---2---3---2-5---7---3-555-|
D|-0---0---2-----2---0-------|
PM *   *   *     *   * 

Chorus
e|------------------------------------|
b|------------------------------------|
g|------------------------------------|
D|-------------------------555--------|
A|-0h333-0h3/66666-1-11111-333-5-11h3-|
D|-0h333-0h3/66666-1-11111-----5-11h3-|

Guitar Solo (Play Three Times)
e|-----------------------------------7--------------------|
b|----7h8p7------------------7h8p7-----8p7----------------|
g|-9~-------9-7-----------9~-------9-------9-8-7----------|
D|--------------9-8-7----------------------------10-8-7---|
A|--------------------7-5-------------------------------9-|
D|--------------------------------------------------------|
Tap to rate this tab
 
# A B C D E F G H I J K L M N O P Q R S T U V W X Y Z