Song name
# A B C D E F G H I J K L M N O P Q R S T U V W X Y Z

Washya - Against The Wall tab

-------------------------------------------------------------------------------
                         Against The Wall - Washya
-------------------------------------------------------------------------------
Tuning: Drop C (DAFCGC)
Intro
D|------------------------------------------|
A|----15~-14-------17-19-18-17------11-10---|
F|--------------14----------------9---------|
C|------------------------------------------|
G|------------------------------------------|
C|-----------12----------------14---------9-|
PM           **                **         *

Part 2
D|---------------------------------------|
A|---------------------------------------|
F|---------------------------------------|
C|---------------------------------------|
G|-0000-00-000--0000-00-000--0000-00-000-|
C|-0000-00-000--0000-00-000--0000-00-000-|
PM **** ** ***  **** ** ***  **** ** *** 

Main Riff
D|----------------------------------------------------------|
A|----------------------------------------------------------|
F|----------------------------------------------------------|
C|------------3-4-5------------3-4-5------------5-6-7-------|
G|------3-4-5-1-2-3------3-4-5-1-2-3------3-4-5-3-4-5-3-2-1-|
C|-0000-3-4-5-------0000-3-4-5-------0000-3-4-5-------3-2-1-|
PM **** * * *       **** * * *       **** * * *       * * * 
Tap to rate this tab
# A B C D E F G H I J K L M N O P Q R S T U V W X Y Z