Song name
# A B C D E F G H I J K L M N O P Q R S T U V W X Y Z

Washya - Run Away tab

-----------------------------------------------------------------------------
                              Run Away - Washya
-----------------------------------------------------------------------------
Tuning: Drop D (ebgDAD)
Intro (lots of distortion)
e|-------------------|
b|-------------------|
g|-------------------|
D|-55-88-33-55-00-11-|
A|-55-88-33-55-00-11-|
D|-55-88-33-55-00-11-|

Verses
e|------------------------------------------|
b|------------------------------------------|
g|------------------------------------------|
D|------------------------------------------|
A|------------------5~-------1~-------------|
D|-//xx-0-0-0-0-0-0----0-0-0----0-0-0-3-0-6-|
PM      * * * * * *    * * *    * * *   *  

Chorus
e|-------------------------------------------------------------------------|
b|-------------------------------------------------------------------------|
g|-------------------------------------------------------------------------|
D|----------------------------------------------55555555-88888888----------|
A|-33333333/77777777/88888888\55555555\11111111-33333333-66666666-44444444-|
D|-33333333/77777777/88888888\55555555\11111111-------------------44444444-|

e|--------------------------------------|
b|--------------------------------------|
g|--------------------------------------|
D|----------55555555--------------------|
A|-55555555-33333333-1h33333333---2-3-5-|
D|-55555555----------1h33333333-0-2-3-5-|
PM                              *

Solo (play twice)
e|------------------------------|
b|------------------------------|
g|-----------------4~-----------|
D|-----2-5-4-2---2--------------|
A|-2-4---------4------3-2-1-----|
D|--------------------------4-1-|
Tap to rate this tab
# A B C D E F G H I J K L M N O P Q R S T U V W X Y Z