Song name
# A B C D E F G H I J K L M N O P Q R S T U V W X Y Z

Washya - Lumpy Denmeadst tab

-----------------------------------------------------------------------------
                          Lumpy Denmeadst - Washya
-----------------------------------------------------------------------------
Tuning: Drop D (ebgDAD)
Intro
e|------------------------------|
b|------------------------------|
g|------------------------------|
D|------------------------------|
A|-0-3-1-0-1-3-1-0-0-1-0-3b-3b--|
D|-0-3-1-0-1-3-1-0-0-1-0--------|
PM * * * * * * * * * * * 

Verses
e|------------------------|
b|------------------------|
g|------------------------|
D|------------------------|
A|-00-00-00-00-00-0-3b-3b-|
D|-00-00-00-00-00-0-3b-3b-|

Chorus
e|----------------------------------------|
b|----------------------------------------|
g|----------------------------------------|
D|----------------------------------------|
A|-5-3-0-3-5-3-5-8-7-3-5555-3-0-8-7-0-1-3-|
D|-5-3-0-3-5-3-5-8-7-3-5555-3-0-8-7-0-1-3-|
Tap to rate this tab
# A B C D E F G H I J K L M N O P Q R S T U V W X Y Z