Song name
# A B C D E F G H I J K L M N O P Q R S T U V W X Y Z

Washya - This Love tab

-------------------------------------------------------------------------------
                             This Love - Washya
-------------------------------------------------------------------------------
Tuning: Standard (ebgDAE)
Intro/Verses
e|-----------------------------------------------------------------------|
b|-----------------------------------------------------------------------|
g|-----0-----------------------------------------0-----------------------|
D|---4---4-----4-------2---0-------0-----0-----4---------0---4-0---------|
A|-2---------4---4---2---4-----4-2-----4---4-2---------2---2-----4-5-2-2-|
E|---------2-------0---------5-------2-------------5-4-----------------0-|

Chorus
e|-----------------------------------|
b|-----------------------------------|
g|-----------------------------------|
D|--------------3-2------------------|
A|-44-77-22-3-5-----3-5-----44-55-22-|
E|-22-55-00-------------3-2-22-33-00-|
PM          * * * * * * * *            
Tap to rate this tab
 
# A B C D E F G H I J K L M N O P Q R S T U V W X Y Z