Song name
# A B C D E F G H I J K L M N O P Q R S T U V W X Y Z

Washya - White Flash tab

-----------------------------------------------------------------------------
                     White Flash - Washya
-----------------------------------------------------------------------------
Tuning: Standard (ebgDAE)
Intro
e|-----------------------------------------|
b|-----------------------------------------|
g|-----------------------------------------|
D|-5/7-----5/7-----------------------------|
A|-3/5-7/8-3/5-5/7-----------------------2-|
E|-----5/6-----3/5-0h3-3p2p0-3p2p0-3p2p0-0-|
PM                 *** ***** ***** ***** 

Verses
e|-------------------------------------------------------|
b|-------------------------------------------------------|
g|-------------------------------------------------------|
D|-------------------------------------------5/7-7-------|
A|-------------------------------------------3/5-5-5-4-3-|
E|-0-1-3-0-3-0-1-3-0-3-0-1-3-0-3-0-1-3-0-3-0-------3-2-1-|
PM * * * * * * * * * * * * * * * * * * * * * 

Chorus
e|---------------------------------------------------------------------|
b|---------------------------------------------------------------------|
g|-----------------3-------------------------------------9-----7-------|
D|-------3-5-5h6p5---5-4-3-----3-----------------------------9---9-7---|
A|---3-5-------------------3-6-----------------------------7---------5-|
E|-0-----------------------------6-5-3-000-0-00-000-0-00-------------3-|
PM *                                   *** * ** *** * **              
Tap to rate this tab
# A B C D E F G H I J K L M N O P Q R S T U V W X Y Z