Song name
# A B C D E F G H I J K L M N O P Q R S T U V W X Y Z

Washya - Levitation tab

-------------------------------------------------------------------------------
                         Levitation - Washya
-------------------------------------------------------------------------------
Tuning: Standard (ebgDAE)
Intro
e|-------------------------------|
b|-------------------------------|
g|-------------------------------|
D|-5-55-8-888-10-5-5555----------|
A|-3-33-6-666-8--3-3333-8-888888-|
E|----------------------6-666666-|
PM                        ****** 

Verses
e|-----------------------------------------------------------------|
b|-----------------------------------------------------------------|
g|-----------4---4---------------------------4---4-----------------|
D|-----------4---4-----------4---4-----------4---4-----------5-5/4-|
A|---------------------------2---2---------------------------3-3/2-|
E|-222222222---2---222222222---2---222222222---2---222222222-------|
PM *********   *   *********   *   *********   *   *********

Chorus
e|------------------------------------------------------------------------|
b|------------------------------------------------------------------------|
g|------------------------------------------------------------------------|
D|-5---9/7--------3-----6-5-4------------------10/7-77--------------------|
A|-3-5-7/5-7-7----1-5-6-4-3-2-2-3----6----9----8-/5-55-5--------3p2p0---2-|
E|---3-----5-5555---3-4-------0-1111-4444-7777---------3333-1p0-------3-0-|
PM            ***                ***  ***  ***          *** *** ***** * 
Tap to rate this tab
# A B C D E F G H I J K L M N O P Q R S T U V W X Y Z