Song name
# A B C D E F G H I J K L M N O P Q R S T U V W X Y Z

Washya - Challenger tab

-------------------------------------------------------------------------------
                   Challenger - Washya
-------------------------------------------------------------------------------
Tuning: Standard (ebgDAE)
Intro 
e|-----------------------------------------------<12>-------------<12>-----|
b|-------------------------------------------<12>------------<12>----------|
g|-------0---------2---------0-----------2--------------<12>---------------|
D|-----4---4-----2---2-----5-----5-----3---3-------------------------------|
A|---2---------4---------3-----3-----5-----------------------------------3-|
E|-0---------0---------0-----------0------------------0----------------0h1-|

Verses
e|-----2-----------4-------------3p2h3-------------------5-------------|
b|-----2-----------4-------------3-----3-----------------5-------------|
g|-----2-----------4-------------3-------3-------------6---6-----------|
D|---4---4-------6---6---------5-----------5---5h7p5-7-------7---------|
A|-2-------2---6-------6-----3---------------5-----------------7\5-4-2-|
E|-----------4-----------4\0-------------------------------------3-2-0-|

Chorus
e|----------------------------------------------------------------------|
b|----------------------------------------------------------------------|
g|----------------------------------------------------------------------|
D|-7-777-7/8\7\5-555---------------7\5-------6p5p3----------------------|
A|-5-555-5/6\5\3-333-8-7-6-4-2-----5\3-3-3/5-------5---5-5-5---5-3-33-2-|
E|-------------------6-5-3-2-0-0h3-----1-1/3---------33333333333\1-11-0-|
PM                                                   ** * * *** 
Tap to rate this tab
 
# A B C D E F G H I J K L M N O P Q R S T U V W X Y Z