Song name
# A B C D E F G H I J K L M N O P Q R S T U V W X Y Z

Washya - Loaded tab

-----------------------------------------------------------------------------
                              Loaded - Washya
-----------------------------------------------------------------------------
Tuning: Drop D (DADGBE)
Intro
e|----------------------|
b|----------------------|
g|----------------------|
D|--------------6\5-----|
A|------5-3-1-3-4\3-3-5-|
D|-\\xx-5-3-1-3-----3-5-|

Verses
e|---------------------------------------------------------------------|
b|---------------------------------------------------------------------|
g|---------------------------------------------------------------------|
D|---------------------------------------------------------------------|
A|---------------------------2h3----------5h6----------------2h3p2-----|
D|-5h6-00000000-2h3-00000000-----00000000-----00000000-5h6p5-------3h5-|
PM     ********     ********     ********     ********   

Chorus
e|-----------------------------------------------------------------------|
b|-----------------------------------------------------------------------|
g|-----------------------------------------------------------------------|
D|-------------------------------333333333-----------888888888-555555555-|
A|-555555555-111111111-333333333-111111111-666666666-666666666-333333333-|
D|-555555555-111111111-333333333-----------666666666---------------------|

e|--------------------------------------------------------------------|
b|--------------------------------------------------------------------|
g|--------------------------------------------------------------------|
D|-------------------------------555555-555555------------------------|
A|-222222222-333333333-000000000-333333-333333-555555-555555-000-33h5-|
D|-222222222-333333333-000000000---------------555555-555555-000-33h5-|
Tap to rate this tab
# A B C D E F G H I J K L M N O P Q R S T U V W X Y Z