Song name
# A B C D E F G H I J K L M N O P Q R S T U V W X Y Z

Washya - Dimestore Credit tab

-------------------------------------------------------------------------------
                     Dimestore Credit - Washya
-------------------------------------------------------------------------------
Tuning: Standard (ebgDAE)
Intro (high distortion)
E|-----------------------------------------|
B|-----------------------------------------|
G|-----------------------------------------|
D|-----------------------------------------|
A|-----------------------------------------|
E|-0-0-0-0-0-0-0-0-0-0-0-0-0-0-0-0-0-0-0-0-|x16
PM * * * * * * * * * * * * * * * * * * * *

Intro 2 (Main Riff)(Chorus)
E|---------------------------------------------------|
B|---------------------------------------------------|
G|---------------------------------------------------|
D|-----------------------------------------3-------0-|
A|-------0h1h2---------1p0-------2p1---1h2---0h1h2---|
E|-0-0h3-------3p0-1h2-----3-2-1-----0---------------|
PM * *                     * * *     *  

Verses
E|---------------------------------------------------------------------|
B|---------------------------------------------------------------------|
G|---------------------------------------------------------------------|
D|-----------------------------------------------------------0-------2-|
A|------------1p0---3------------1p0-------------------0h1h2-------1---|
E|-0000-000-0-----3---0000-000-0-----3-2-1--0000-000-0---------0-3-----|
PM **** *** *         **** *** *            **** *** *       

Guitar Solo
E|----------------------------------------------------------------------|
B|----------------------------------------------------------------------|
G|------------------------------------------------------------------15~-|
D|----12-------12----14~-14b-14p12p11----12p11-------13p12--------------|
A|-11----12-11----12------------------14-------12h14-------14p12h14-----|
E|----------------------------------------------------------------------|

E|-----------------------------------------------------------------------17-|
B|------------------------------------------------------------------14h15---|
G|---------------------------------------------------------14h15h17---------|
D|--------------------------------------14h15h17pp14h15h17------------------|
A|--------------------11h13h15p11h13h15-------------------------------------|
E|-/11h13h15p11h13h15-------------------------------------------------------|
PM  ****************************************************************

E|-1717171717p15p13h17171717p15p13h17171717p15p13/15b-15br14~-|
B|------------------------------------------------------------|
G|------------------------------------------------------------|
D|------------------------------------------------------------|
A|------------------------------------------------------------|
E|------------------------------------------------------------|

E|-17h18p17p15h17p15p14h15p14p12h14p12p10h12p10p8p7-----------------|
B|--------------------------------------------------8h10p8p7--------|
G|-----------------------------------------------------------10p8p7-|
D|------------------------------------------------------------------|
A|------------------------------------------------------------------|
E|------------------------------------------------------------------|

E|-------------------------------------------8p7h8h10-12b-12b-----|
B|--------------------------------------8h10------------------11\-|
G|-10p8p7----8p7h8h10------------10p8p7---------------------------|
D|--------10--------------10p8p7----------------------------------|
A|--------------------8p7-----------------------------------------|
E|----------------------------------------------------------------|
Tap to rate this tab
# A B C D E F G H I J K L M N O P Q R S T U V W X Y Z