Song name
# A B C D E F G H I J K L M N O P Q R S T U V W X Y Z

Washya - Demons Are Coming tab

-----------------------------------------------------------------------------
                         Demon's Are Coming - Washya
-----------------------------------------------------------------------------
Tuning: Drop D (DADGBE)
Intro 1
E|----------------------------------------------------------------|
B|----------------------------------------------------------------|
G|-----------------------8p7p5------------------------------------|
D|---------8p7p5-----------------------8p7p5----------------------|
A|-0-0h1-0-------0-0h1-0-------0-0h1-0--------3p2p0-2p0-2p0-3p2p0-|
D|-0-0h1-0-------0-0h1-0-------0-0h1-0--------3p2p0-2p0-2p0-3p2p0-|

Intro 2 (Heavier)
E|-----------------------------------------------------------------------|
B|-----------------------------------------------------------------------|
G|-----------------------------------------------------------------------|
D|-----------------------------------------------------------------------|
A|-00-1-0-0-3-2-1--00-1-0-0-7-6-5--00-1-0-0-3-2-1--0h2p1p0-1p0-1p0-2p1p0-|
D|-00-1-0-0-3-2-1--00-1-0-0-7-6-5--00-1-0-0-3-2-1--0h2p1p0-1p0-1p0-2p1p0-|

Verses
E|-----------------------------------------------------------------|
B|-----------------------------------------------------------------|
G|-----------------------------------------------------------------|
D|-----------------------------------------------------------------|
A|--------------------------------------7~----------3~----------1~-|
D|-0-0000-0-000-0-000-0-000-0-000-0-000----0-0000-0----0-0000-0----|
PM * **** * *** * *** * *** * *** * ***    * **** *    * **** * 

E|-----------------------------|
B|-----------------------------|
G|-----------------------------|
D|-----------------------------|
A|-2p1p0-1p0-1p0-2p1p0-1p0-1p0-|
D|-2p1p0-1p0-1p0-2p1p0-1p0-1p0-|

Chorus
E|-----------------------------------------------|
B|-----------------------------------------------|
G|-----------------------------------------------|
D|----------9-8-7--------------3-4-5-------------|
A|-00-1-2-3-7-6-5-3-2-1--7-6-5-1-2-3-3-2-1-0-000-|
D|-00-1-2-3-------3-2-1--7-6-5-------3-2-1-0-000-|
PM ** * * *       * * *  * * *       * * * * *** 

Solo
E|---------12----------------12----------------12----------15p13p12----12~-|
B|-13b-15~----------------------15p13p12h13h15----------------------15-----|
G|-15b--------15p13p12h13h15----------------------15p13p12-----------------|
D|-------------------------------------------------------------------------|
A|-------------------------------------------------------------------------|
D|-------------------------------------------------------------------------|

E|-10h14p10h14p10h15p10h15p10-10----------------10-------------------------|
B|-------------------------------13p12p10h12h13----13p12p10h12h13----------|
G|----------------------------------------------------------------10-------|
D|-------------------------------------------------------------------13p12-|
A|-------------------------------------------------------------------------|
D|-------------------------------------------------------------------------|

E|--------------------------------------------------------|
B|----------------10--------------------------------------|
G|--------------------------------------------------------|
D|-13p12p10h12h13----13----------15p13p12-----------------|
A|----------------------12p10h12----------15p13-----------|
D|----------------------------------------------12p10h12~-|

E|-------------------------------------------------------|
B|---------------------------------------------17----17~-|
G|---------17-17-----15-15-----17-17-----15-15----15-----|
D|-/15~-15-------/13-------/15-------/13-----------------|
A|-------------------------------------------------------|
D|-------------------------------------------------------|

E|-----11h13-----13h15-----15h17-----17h19-----19h21-----20h22p20p22~\---|
B|-/10-------/12-------/14-------/16-------/18-------/19-----------------|
G|-----------------------------------------------------------------------|
D|-----------------------------------------------------------------------|
A|-----------------------------------------------------------------------|
D|-----------------------------------------------------------------------|
Tap to rate this tab
# A B C D E F G H I J K L M N O P Q R S T U V W X Y Z