Song name
# A B C D E F G H I J K L M N O P Q R S T U V W X Y Z

Washya - Corn Fields tab

-----------------------------------------------------------------------------
                      Corn Fields - Washya
-----------------------------------------------------------------------------
Tuning: Drop D (DADGBE)
Intro
E|-------------------------------------------------------|
B|-------------------------------------------------------|
G|-------------------------------------------------------|
D|-----3-5--555------1-3--333------5h6-----3h4-----2-4-2-|
A|---3------333----1------111----3-------1-------2-----2-|
D|-3-------------1-------------3-------1-------2-------2-|
PM * * * *       * * * *       * * *   * * *   * * * *  

Verses
E|------------------------------------------------------------------------|
B|------------------------------------------------------------------------|
G|------------------------------------------------------------------------|
D|--------------------------------------------------------3----3----3-----|
A|---------------------------------------------2h3--------1----1----1-----|
D|-00-2-00-2-00-2-00-2h3-00-2-00-2-00-2-00-2h3-----3-0-00---00---00---00--|
PM **   **   **   **     **   **   **   **           * **   **   **   **

Chorus
E|-----------------------------------------------------------------|
B|-----------------------------------------------------------------|
G|-----------------------------------------------------------------|
D|--------3-----5555-7------------------------------33/5-----5-----|
A|-00-2h3-1-2h3-3333-5-3-5-6-2h33333333-11111111111-11/3-5/6-3-2h3-|
D|-00-2h3---2h3--------3-5-6-2h33333333-11111111111------5/6---2h3-|

No Solo
Tap to rate this tab
# A B C D E F G H I J K L M N O P Q R S T U V W X Y Z