Song name
# A B C D E F G H I J K L M N O P Q R S T U V W X Y Z

Washya - Dag Me Down tab

-----------------------------------------------------------------------------
                           Drag Me Down - Washya
-----------------------------------------------------------------------------
Tuning: Standard (EBGDAE)
Intro/Outro
E|-----------------------------|
B|-----------------------------|
G|-----------------------------|
D|-----------------------555\4-|
A|-8\7---4/5---8\7---4/5-333\2-|
E|-6\5-0-2/3-0-6\5-0-2/3-------|
PM     *     *     *  

Verses (Very Heavy Palm Muting)
E|--------------------------------------------------------------------|
B|--------------------------------------------------------------------|
G|----------------------------------9*\-------------------------------|
D|--------------------------------------------------------------------|
A|-----------------------------2/9\-----------------------------2-4-3-|
E|-000-000-000-000-000-000-000-0/7\-----000-000-000-000-000-000-0-2-1-|
PM *** *** *** *** *** *** ***          *** *** *** *** *** *** 

Chorus
E|----------------------------------------------------------------------|
B|----------------------------------------------------------------------|
G|-----------------------------------------------------------2~---------|
D|-----444-44-----10101010\9---------------3~-----2~-----3--------------|
A|-222-222-22-5-7-8-8-8-8-\7-9/11\3-333333----2h3----2h3---3----5\4\3\2-|
E|-000--------3-5------------7/9-\1-111111----------------------3\2\1\0-|
PM ***                              ******                      * * * 


Verses (Very Heavy Palm Muting)
E|--------------------------------------------------------------------|
B|--------------------------------------------------------------------|
G|----------------------------------9*\-------------------------------|
D|--------------------------------------------------------------------|
A|-----------------------------2/9\-----------------------------2-4-5-|
E|-000-000-000-000-000-000-000-0/7\-----000-000-000-000-000-000-0-2-3-|
PM *** *** *** *** *** *** ***          *** *** *** *** *** *** 



Guitar Solo
E|----------------------------------8h10p8---------8h10p8----------10h13~--|
B|-10b~-10b-10b-10b-10b----8b~-8h12--------12p8h12--------12p10h12---------|
G|-8b-~-----------------10-------------------------------------------------|
D|-------------------------------------------------------------------------|
A|-------------------------------------------------------------------------|
E|-------------------------------------------------------------------------|

E|-13h15p13h15----------15p13h15p13----------------13h15p13h15p13-------15~-|
B|-------------15p13h15-------------12h13p12h13p12----------------12h13-----|
G|--------------------------------------------------------------------------|
D|--------------------------------------------------------------------------|
A|--------------------------------------------------------------------------|
E|--------------------------------------------------------------------------|

E|-15h17p15h18p15h17p15h18p15h17p15h18p15h18p15h18p15h18-18b-|
B|-----------------------------------------------------------|
G|-----------------------------------------------------------|
D|-----------------------------------------------------------|
A|-----------------------------------------------------------|
E|-----------------------------------------------------------|

E|----9-----9-----9----9-----------------------10-------11-------10b-|
B|----9-----9-----9----9-----10-------11-------------------------10b-|
G|-7b----7b----7b---7b---7h8----8p7h8----8p7p8----8p7p8----8p7h8-----|
D|-------------------------------------------------------------------|
A|-------------------------------------------------------------------|
E|-------------------------------------------------------------------|

E|-10h12~-----------------------------------------------------------------|
B|--------12h14h15----------12h14h15----------13h15h16----------13h15h16--|
G|-----------------12h14h15----------12h14h15----------13h15h16-----------|
D|------------------------------------------------------------------------|
A|------------------------------------------------------------------------|
E|------------------------------------------------------------------------|

E|----------------------------------------------------19b~--|
B|----------15h17h18----------15h17h18----------16h17-------|
G|-13h15h16----------15h17h18----------15h17h18-------------|
D|----------------------------------------------------------|
A|----------------------------------------------------------|
E|----------------------------------------------------------|

E|-19h20p19\17h18p17\15h18p17p15h17\14h17p15p14h15p14\12h15p13p12h13p12-----|
B|----------------------------------------------------------------------12~-|
G|--------------------------------------------------------------------------|
D|--------------------------------------------------------------------------|
A|--------------------------------------------------------------------------|
E|--------------------------------------------------------------------------|

Chorus
E|----------------------------------------------------------------------|
B|----------------------------------------------------------------------|
G|-----------------------------------------------------------2~---------|
D|-----444-44-----10101010\9---------------3~-----2~-----3--------------|
A|-222-222-22-5-7-8-8-8-8-\7-9/11\3-333333----2h3----2h3---3----5\4\3\2-|
E|-000--------3-5------------7/9-\1-111111----------------------3\2\1\0-|
PM ***                              ******                      * * * 

Verses (Very Heavy Palm Muting)
E|--------------------------------------------------------------------|
B|--------------------------------------------------------------------|
G|----------------------------------9*\-------------------------------|
D|--------------------------------------------------------------------|
A|-----------------------------2/9\-----------------------------2-4-5-|
E|-000-000-000-000-000-000-000-0/7\-----000-000-000-000-000-000-0-2-3-|
PM *** *** *** *** *** *** ***          *** *** *** *** *** *** 

Intro/Outro
E|-----------------------------|
B|-----------------------------|
G|-----------------------------|
D|-----------------------555\4-|
A|-8\7---4/5---8\7---4/5-333\2-|
E|-6\5-0-2/3-0-6\5-0-2/3-------|
PM     *     *     *  
Tap to rate this tab
 
# A B C D E F G H I J K L M N O P Q R S T U V W X Y Z