Song name
# A B C D E F G H I J K L M N O P Q R S T U V W X Y Z

Washya - Crushing Blow tab

-----------------------------------------------------------------------------
                     Crushing Blow - Washya
-----------------------------------------------------------------------------
Drop C (DAFCGC)
Intro
D|---------------------------------|
A|---------------------------------|
F|---------------------------------|
C|---------------------------------|
G|-0--0--0--0--0--0--0--0--0--0--0-|
C|-0--0--0--0--0--0--0--0--0--0--0-|
PM *  *  *  *  *  *  *  *  *  *  *

Main Riff/Chorus
D|------------------------------------------------|
A|------------------------------------------------|
F|------------------------------------------------|
C|------------------------------------------------|
G|-6-5-3--5-3-2--6-5-3--5-3-2--5-6-5-3-2--6-5-2-3-|
C|-6-5-3--5-3-2--6-5-3--5-3-2--5-6-5-3-2--6-5-2-3-|

Verses
D|-----------------------------------------------|
A|-----------------------------------------------|
F|---------0-------------------------------------|
C|-------2---2p0----------------3h5p3------------|
G|---2p0---------2-2-2222---3h5-------5p3-5-5555-|
C|-0---------------2-2222-3---------------5-5555-|
PM                   ****                   **** 

Main Riff/Chorus
D|------------------------------------------------|
A|------------------------------------------------|
F|------------------------------------------------|
C|------------------------------------------------|
G|-6-5-3--5-3-2--6-5-3--5-3-2--5-6-5-3-2--6-5-2-3-|
C|-6-5-3--5-3-2--6-5-3--5-3-2--5-6-5-3-2--6-5-2-3-|

Verses
D|-----------------------------------------------|
A|-----------------------------------------------|
F|---------0-------------------------------------|
C|-------2---2p0----------------3h5p3------------|
G|---2p0---------2-2-2222---3h5-------5p3-5-5555-|
C|-0---------------2-2222-3---------------5-5555-|
PM                   ****                   **** 


Cool Lick (played very fast)
D|----------------------------------------------------------------------|
A|----------------------------------------------------------------------|
F|----------------------------------------------------------------------|
C|----------------------------------------3-----------------------------|
G|-----5p4---2-----------------2------6p5---------------2-------4h5h6-5-|
C|-0h2-----5---5p4p2h3h5-1h2h4-2--0h3-------3h4h6-1h3h4-2-1h2h3-------5-|
PM ***     *   ********* *****    *** ***   ***** *****   ***** *****  

Outro
D|-----------------------------------------------------------------------|
A|-----------------------------------------------------------------------|
F|-----------------------------------------------------------------------|
C|-----------------------------------------------------------------------|
G|---1---3---1---3---4---1h3-0-00000---3---5---3---5---6---3h5-3-33\2-22-|
C|-0-1-0-3-0-1-0-3-0-4-0-1h3-0-00000-0-3-0-5-0-3-0-5-0-6-0-3h5-3-33\2-22-|
PM *   *   *   *   *   *     * ***** *   *   *   *   *   *     * ** * ** 
Tap to rate this tab
 
# A B C D E F G H I J K L M N O P Q R S T U V W X Y Z