Song name
# A B C D E F G H I J K L M N O P Q R S T U V W X Y Z

Washya - Southern Respite tab

-----------------------------------------------------------------------------
            Southern Respite - Washya
-----------------------------------------------------------------------------
Tuning: D Standard (DAFCGD)
Intro
D|---------------------------------------|
A|---------------------------------------|
F|---------------------------------------|
C|---------------------------------------|
G|-7\88-7/88-7/8-7/88-7/88-7/8-8\7\5\4-2-|
D|-5\66-5/66-5/6-5/66-5/66-5/6-6\5\3\2-0-|

Verses
D|-----------------------------------------|
A|--8b~------------------------------------|
F|--7b~------------------------------------|
C|-----------------------------------------|
G|------2h3-2-33-2--223332-332-222-22-23/4-|
D|------0h1-0-11-0--001110-110-000-00-01/2-|
PM          * ** *  ****** *** *** ** **   

Chorus
D|--------------------------------------------------------|
A|--------------------------------------------------------|
F|--------------------------------------------------------|
C|-------------------5-------------------4----------------|
G|---7---8---3---5---3---5---7---5---7---2---332222-2h3h4-|
D|-0-5-0-6-0-1-0-3-0---0-3-0-5-0-3-0-5-0---0-110000-0h1h2-|
PM *   *   *   *   *   *   *   *   *   *   *        ***** 
Tap to rate this tab
 
# A B C D E F G H I J K L M N O P Q R S T U V W X Y Z