Song name
# A B C D E F G H I J K L M N O P Q R S T U V W X Y Z

Washya - Step Up tab

-----------------------------------------------------------------------------
                   Step Up - Washya
-----------------------------------------------------------------------------
Tuning: Drop C (DAFCGC)
Intro x3
D|--------------|---------------------|
A|--------------|---------------------|
F|--------------|---------------------|
C|--------------|---------------------|
G|---5---3------|-0-888p7-0h5p3-0h3p2-|
C|-3---3---33-1-|-0-888p7-0p5p3-0p3p2-|

Verses
D|----------------------------------------|
A|----------------------------------------|
F|----------------------------------------|
C|--------3--------5----------------------|
G|-00-3p2-1-00-3p2-3-00-6p5p3-0h2h3-0h3h5-|
C|-00-3p2---00-3p2---00-6p5p3-0h2h3-0h3h5-|
PM **       **       ** 

Chorus
D|-------------------------------------------------------------------------|
A|-------------------------------------------------------------------------|
F|-------------------------------------------------------------------------|
C|------------------------------------------------------------44-444-4-----|
G|--/-888-88-888-88-8\77-7-77-777h8\555-55-5-555-222-22-2-222-22-222-2-0h2-|
C|--/-888-88-888-88-8\77-7-77-777h8\555-55-5-555-222-22-2-222----------0h2-|

Solo/Interlude (play 3 times)
D|------------------------------------------------------|
A|------------------------------------------------------|
F|---7-------8-----------9----------10------10---3------|
C|-------7-------8-----------9---10------10--------3-3~-|
G|---------------------------------------------------3~-|
C|-0---0---0---0---0---0---0---0-------0-------0-----3~-|
PM *   *   *   *   *   *   *   *       *       * 
Tap to rate this tab
# A B C D E F G H I J K L M N O P Q R S T U V W X Y Z