Song name
# A B C D E F G H I J K L M N O P Q R S T U V W X Y Z

Washya - Regular People tab

-----------------------------------------------------------------------------
                   Regular People (Conceit) - Pantera
-----------------------------------------------------------------------------
Tuning: Down One Whole Step (DAFCGD)
Intro
D|----------------------------------|
A|----------------------------------|
F|----------------------------------|
C|----------------------------------|
G|-2222222222222222-2-2-2-2-2-2-2-2-|
D|-0000000000000000-0-0-0-0-0-0-0-0-|
PM **************** * * * * * * * *

Main Riff/Chorus
D|---------------------------------------------------------------------|
A|---------------------------------------------------------------------|
F|---------------------------------------------------------------------|
C|---------------------------------------------------------------------|
G|-------8p7-------7---------------8p7-------7---------555/777/888\777-|
D|-0-0-0-----0-7h8---8p7\5h7-0-0-0-----0-7h8---8p7\5h7-333/555/666\555-|
PM * * *                     * * *              

Verses
D|-----------------------------------------------------------|
A|-----------------------------------------------------------|
F|-----------------------------------------------------------|
C|-----------------------------------------------------------|
G|-------------5-------------7-------------8-555/777/888\777-|
D|-0-00-00-000-3-0-00-00-000-5-0-00-00-000-6-333/555/666\555-|
PM * ** ** ***   * ** ** ***   * ** ** *** 


Verses Part 2
D|------------------------------------------------|
A|------------------------------------------------|
F|------------------------------------------------|
C|-------------------------------------------/9~--|
G|-3322332233223-3322332233223-3322332233223------|
D|-1100110011001-1100110011001-1100110011001----\-|
PM ************* ************* ************* 

Main Riff/Chorus
D|---------------------------------------------------------------------|
A|---------------------------------------------------------------------|
F|---------------------------------------------------------------------|
C|---------------------------------------------------------------------|
G|-------8p7-------7---------------8p7-------7---------555/777/888\777-|
D|-0-0-0-----0-7h8---8p7\5h7-0-0-0-----0-7h8---8p7\5h7-333/555/666\555-|
PM * * *                     * * *              

Verses
D|-----------------------------------------------------------|
A|-----------------------------------------------------------|
F|-----------------------------------------------------------|
C|-----------------------------------------------------------|
G|-------------5-------------7-------------8-555/777/888\777-|
D|-0-00-00-000-3-0-00-00-000-5-0-00-00-000-6-333/555/666\555-|
PM * ** ** ***   * ** ** ***   * ** ** *** 

Guitar Solo
D|-12b~-------14-12-------14p12-------------------------------------|
A|------14-13-------14-13-------14p13h14p12-------------------------|
F|------------------------------------------/17b~-14h16h17p14h16h17-|
C|------------------------------------------------------------------|
G|------------------------------------------------------------------|
C|------------------------------------------------------------------|

D|-------------------------------------14-------14h16----14h16h17p14h16h17-|
A|-14-------14h16----14h16h17p14h16h17----16h17-------17-------------------|
F|----16h17-------17-------------------------------------------------------|
C|-------------------------------------------------------------------------|
G|-------------------------------------------------------------------------|
D|-------------------------------------------------------------------------|

D|-17p16h17p16p14----14h17b~--------17h19p19-20p19p17-1919h20-19p17-|
A|----------------15---------/11/19---------------------------------|
F|------------------------------------------------------------------|
C|------------------------------------------------------------------|
G|------------------------------------------------------------------|
D|------------------------------------------------------------------|

D|-19h20p19p17h20p17h20b~--20p17------19----19----19----19----------|
A|-------------------19b~--------20b~----18----20----20----18b-18b\-|
F|------------------------------------------------------------------|
C|------------------------------------------------------------------|
G|------------------------------------------------------------------|
D|------------------------------------------------------------------|

Verses
D|-----------------------------------------------------------|
A|-----------------------------------------------------------|
F|-----------------------------------------------------------|
C|-----------------------------------------------------------|
G|-------------5-------------7-------------8-555/777/888\777-|
D|-0-00-00-000-3-0-00-00-000-5-0-00-00-000-6-333/555/666\555-|
PM * ** ** ***   * ** ** ***   * ** ** *** 

Main Riff/Chorus
D|---------------------------------------------------------------------|
A|---------------------------------------------------------------------|
F|---------------------------------------------------------------------|
C|---------------------------------------------------------------------|
G|-------8p7-------7---------------8p7-------7---------555/777/888\777-|
D|-0-0-0-----0-7h8---8p7\5h7-0-0-0-----0-7h8---8p7\5h7-333/555/666\555-|
PM * * *                     * * *              
Tap to rate this tab
 
# A B C D E F G H I J K L M N O P Q R S T U V W X Y Z