Song name
# A B C D E F G H I J K L M N O P Q R S T U V W X Y Z

Washya - Fall For Absolution tab

-----------------------------------------------------------------------------
                       Fall For Absolution - Washya
-----------------------------------------------------------------------------
Tuning: Standard (EBGDAE)
E|---------------------------------------------|
B|---------------------------------------------|
G|----7bp5----------5bp3----------2bp0---------|
D|---------7~------------5~------------2p0-----|
A|-2----------2-3-2---------2-3-2----------2-2-|
E|-0----------0-1-0---------0-1-0------------0-|
PM *          * * *         * * * 

Verses
E|---------------------------------------|
B|---------------------------------------|
G|---------------------------------------|
D|---------------------------------------|
A|-----------------------------1-3bp1----|
E|-3333333-22-2222-11-1111-1h3--------3b-|
PM ******* ** **** ** ****

Chorus
E|--------------------------------------|
B|--------------------------------------|
G|--------------------------------------|
D|-----------------------------5\4/7777-|
A|-10101010-88888888-6666666---3\2/5555-|
E|-88888888-66666666-4444444-0----------|
PM                           * 

Solo
E|------------------------------------------------------------------------|
B|-8bp7----8p7---8p7----10b9----10p9----10p9----13b-13h15p13h15p13h15p13~-|
G|-------9-----9-----9-------11------11------11---------------------------|
D|------------------------------------------------------------------------|
A|------------------------------------------------------------------------|
E|------------------------------------------------------------------------|
Tap to rate this tab
# A B C D E F G H I J K L M N O P Q R S T U V W X Y Z