Song name
# A B C D E F G H I J K L M N O P Q R S T U V W X Y Z

Washya - Wild Thing tab

-----------------------------------------------------------------------------
                             Wild Thing - Washya
-----------------------------------------------------------------------------
Tuning: Standard (EBGDAE)
Intro/Verses
E|-------------------------------------------------2-|
B|-------------------------------------------------2-|
G|-----2-----------------------0-----0-------------3-|
D|---4---4-----2---2-----0---2-----4-------2-----0-4-|
A|-2---------4---4-----4---3-----2-------2-----4---4-|
E|---------2---------2-----------------4-----2-----2-|
PM         *         *                 *     * 

Chorus
E|---------------------------------------------|
B|---------------------------------------------|
G|---------------------------------------------|
D|---------------------------------------------|
A|-44/5-44/5-44/5-8-7-5-44/5-44/5-44/5-5-4-3-2-|
E|-22/3-22/3-22/3-6-5-3-22/3-22/3-22/3-3-2-1-0-|
PM **   **   **         **   **   **   * * * 

Post Solo (Fast)
E|---------------------------------|
B|---------------------------------|
G|---------------------------------|
D|---------------------------------|
A|-----3p2-------3p2-------------4-|
E|-3-5-----2h3h5-----5p3p2-5p4p2-2-|
PM * *     *****     ***** ***** 

Solo
E|--------------------------------------------------16-18-19-20bp19p17-|
B|-----17p14---------17p14-----------------------17--------------------|
G|-16b-------16--16b-------16b16161616161616p14\-----------------------|
D|---------------------------------------------------------------------|
A|---------------------------------------------------------------------|
E|---------------------------------------------------------------------|

E|-------------------------------------------------------------|
B|-19p17h19-17~----8-----------------4p2p0---------------------|
G|--------------/7---7p6p4-4p2p0h2b~-------4p2p0---------------|
D|-----------------------------------------------4p2p0-2p0-----|
A|---------------------------------------------------------2b~-|
E|-------------------------------------------------------------|
Tap to rate this tab
 
# A B C D E F G H I J K L M N O P Q R S T U V W X Y Z