Song name
# A B C D E F G H I J K L M N O P Q R S T U V W X Y Z

Washya - Grinding Time tab

-----------------------------------------------------------------------------
                   Grinding Time - Washya
-----------------------------------------------------------------------------
Tuning: Standard (EBGDAE)
Intro
E|-----------------------------------|
B|-----------------------------------|
G|-----------------------------------|
D|-----------------------------------|
A|-6\5--------6\5--------6\5-2-3-3/5-|
E|-4\3-333333-4\3-333333-4\3-0-1-1/3-|
PM     ******     ****** 

Verses
E|-------------------------------------------|
B|-------------------------------------------|
G|-------------------------------------------|
D|----------------------------6\5------------|
A|-5--------5--------5--------4\3-3\5--------|
E|-3-333333-3-333333-3-333333-----1\3-333333-|
PM   ******   ******   ******         ****** 

Chorus
E|-------------------------------------------|
B|-------------------------------------------|
G|-------------------------------------------|
D|-------------------------------------------|
A|-222-5-3-5-222-5-3-7-222-5-3-5-222-8-7-5-8-|
E|-000-3-1-3-000-3-1-5-000-3-1-3-000-6-5-3-6-|

Solo
E|-----------------12h17p12h17p12h17p12h17p12h17p12h16p12h16p12-18b--|
B|-12b-12b-10b-14b---------------------------------------------------|
G|-12b-12b-10b-14b---------------------------------------------------|
D|-------------------------------------------------------------------|
A|-------------------------------------------------------------------|
E|-------------------------------------------------------------------|

E|-20b~~~~-----18p17--------18p17------------17~--18-18p17----18-18p17----|
B|---------15b-------15-15b-------15-15b-13b---------------15----------15-|
G|---------17b----------17b----------17b-15b------------------------------|
D|------------------------------------------------------------------------|
A|------------------------------------------------------------------------|
E|------------------------------------------------------------------------|

E|-18-18p17----18-18p17-------16~\-|
B|----------15----------13h14------|
G|---------------------------------|
D|---------------------------------|
A|---------------------------------|
E|---------------------------------|
Tap to rate this tab
 
# A B C D E F G H I J K L M N O P Q R S T U V W X Y Z