Song name
# A B C D E F G H I J K L M N O P Q R S T U V W X Y Z

Washya - Lift My Curse tab

-------------------------------------------------------------------------------
             Lift My Curse - Washya
-------------------------------------------------------------------------------
Tuning: Drop B (BF#BEG#C)
Intro
B|---------------------------------------------------|
F#|--------------------------------------------------|
B|------------------------------------------------6*-|
E|--------3-----------------------------3h5h6-3h5----|
G#|-3h5-----5h6p5-------------------3h5--------------|
C|------5---------6p5p3-0000-0-0-00------------------|
PM                      **** * * ** 

Verses
B|-------------------------------------|
F#|------------------------------------|
B|-------------------------------------|
E|------5/4\5-----8/7\8-----5/4\5------|
G#|-----3/2\3-----6/5\6-----3/2\3--2/5-|
C|--000-------000-------000--------2/5-|
PM  ***       ***       *** 

Chorus
B|---------------------------------------------------------|
F#|--------------------------------------------------------|
B|---------------------------------------------------------|
E|--5/4\5-3--------------------------------------3/4\3/2---|
G#|-3/2\3-1-2-6-5--0-3-2-0-22-00-22/4/5555-5555--1/2\1/0-2-|
C|----------2-6-5--0-3-2-0-22-00-22/4/5555-5555----------2-|
Tap to rate this tab
# A B C D E F G H I J K L M N O P Q R S T U V W X Y Z