Song name
# A B C D E F G H I J K L M N O P Q R S T U V W X Y Z

Washya - Drug Ring tab

-------------------------------------------------------------------------------
                    Drug ring - Washya
-------------------------------------------------------------------------------
Tuning: Standard (EBGDAE)
Intro
E|-----------------|
B|-----------------|
G|-----------------|
D|-444---------333-|
A|-222-4-5-4-2-111-|
E|-----2-3-2-0-----|

Main Riff/Chorus
E|---------------------------------------|
B|---------------------------------------|
G|---------------------------------------|
D|-444-----------777\6-------------333-2-|
A|-222-444/5/7-5-555\4-444-5-4-3-2-111-0-|
E|-----222/3/5-3-------222-3-2-1-0-------|

Verses (palm mute verses)
E|----------------------------------------------------|
B|----------------------------------------------------|
G|----------------------------------------------------|
D|-44444444/77777777\66666666\5555555-----------------|
A|-22222222/55555555\44444444\3333333-33333333/555555-|
E|------------------------------------11111111/333333-|
PM **************************************************

Solo (play twice)
E|-------15----13-------15----13h15p13h15p13h15p13~------------------------|
B|-12-12----12----12-12----12-----------------------15p13p12---------------|
G|-----------------------------------------------------------15p13p12------|
D|--------------------------------------------------------------------12~--|
A|-------------------------------------------------------------------------|
E|-------------------------------------------------------------------------|
Tap to rate this tab
# A B C D E F G H I J K L M N O P Q R S T U V W X Y Z