Song name
# A B C D E F G H I J K L M N O P Q R S T U V W X Y Z

Washya - Wing Nut tab

-----------------------------------------------------------------------------
            Wing Nut - Washya
-----------------------------------------------------------------------------
Tuning: Drop D (DADGBE)
Intro/Verses
E|-----------------------------------|
B|-----------------------------------|
G|---------------4-------------------|
D|-------4---2/5---------4-----------|
A|---2/5-------------2/5---5-4-2-----|
D|-0-------0-------0-------------4-2-|x3
PM *       *       *      

Chorus
E|---------------------------------------------------|
B|---------------------------------------------------|
G|---------------------------------------------------|
D|---------------55555/88888-------------33333-2-----|
A|-22222/44444\2-33333/66666-66666-33333-11111-0-1h3-|
D|-22222/44444\2-------------66666-33333---------1h3-|

Interlude (Heavy Riff Played Fast)x 2
E|-------------------------------------------------------------------------|
B|-------------------------------------------------------------------------|
G|--------------------------------------------------------7h9h10p9p7h9p7p5-|
D|-------------------------------------------------------------------------|
A|-0-0-0-0-0-0-0-0-7-9-10-9-7-9-7-5-7-5-3-0-0-0-0-0-0-0-0------------------|
D|-0-0-0-0-0-0-0-0-7-9-10-9-7-9-7-5-7-5-3-0-0-0-0-0-0-0-0------------------|
PM * * * * * * * *                        * * * * * * * *  

E|------------|
B|------------|
G|-5h7p5p3----|
D|---------5~-|
A|------------|
D|------------|

Guitar Solo
E|----------------------------11h12p11-----11h12p11---------18b~~~~-|
B|-------10~----------13~-13b----------13b----------13b-16b---------|
G|-9-9-8-----9p8h9/11-----------------------------------------------|
D|------------------------------------------------------------------|
A|------------------------------------------------------------------|
D|------------------------------------------------------------------|





Tap to rate this tab
# A B C D E F G H I J K L M N O P Q R S T U V W X Y Z